ISO-10303-21;
HEADER;
FILE_DESCRIPTION (( 'STEP AP203' ),
    '1' );
FILE_NAME ('N-SF1-BPBSC-20-1200-1600.STEP',
    '2021-01-05T02:14:57',
    ( '' ),
    ( '' ),
    'SwSTEP 2.0',
    'SolidWorks 2020',
    '' );
FILE_SCHEMA (( 'CONFIG_CONTROL_DESIGN' ));
ENDSEC;

DATA;
#1 = VECTOR ( 'NONE', #58, 1000.000000000000000 ) ;
#2 = VECTOR ( 'NONE', #307, 1000.000000000000000 ) ;
#3 = DIRECTION ( 'NONE',  ( 1.000000000000000000, -2.220446049250313081E-16, 0.000000000000000000 ) ) ;
#4 = VERTEX_POINT ( 'NONE', #227 ) ;
#5 = FACE_OUTER_BOUND ( 'NONE', #144, .T. ) ;
#6 = DIRECTION ( 'NONE',  ( 0.000000000000000000, -0.000000000000000000, 1.000000000000000000 ) ) ;
#7 = CARTESIAN_POINT ( 'NONE',  ( 10.00000000000000000, 10.00000000000000000, -10.00000000000000000 ) ) ;
#8 = ORIENTED_EDGE ( 'NONE', *, *, #121, .T. ) ;
#9 = CARTESIAN_POINT ( 'NONE',  ( -9.999999999999998224, -10.00000000000000000, 10.00000000000000000 ) ) ;
#10 = CARTESIAN_POINT ( 'NONE',  ( 10.00000000000000000, 10.00000000000000000, 10.00000000000000000 ) ) ;
#11 = ORIENTED_EDGE ( 'NONE', *, *, #88, .T. ) ;
#12 = CARTESIAN_POINT ( 'NONE',  ( 10.00000000000000178, 9.999999999999998224, 10.00000000000000000 ) ) ;
#13 = FACE_OUTER_BOUND ( 'NONE', #243, .T. ) ;
#14 = APPROVAL_ROLE ( '' ) ;
#15 = EDGE_CURVE ( 'NONE', #45, #108, #83, .T. ) ;
#16 = VECTOR ( 'NONE', #31, 1000.000000000000000 ) ;
#17 = APPROVAL_PERSON_ORGANIZATION ( #188, #143, #14 ) ;
#18 = PERSON_AND_ORGANIZATION ( #91, #126 ) ;
#19 = ORIENTED_EDGE ( 'NONE', *, *, #317, .F. ) ;
#20 = VECTOR ( 'NONE', #250, 1000.000000000000000 ) ;
#21 = ORIENTED_EDGE ( 'NONE', *, *, #103, .T. ) ;
#22 = ORIENTED_EDGE ( 'NONE', *, *, #111, .T. ) ;
#23 = CC_DESIGN_PERSON_AND_ORGANIZATION_ASSIGNMENT ( #262, #140, ( #84 ) ) ;
#24 = VECTOR ( 'NONE', #251, 1000.000000000000000 ) ;
#25 = EDGE_LOOP ( 'NONE', ( #46, #321, #253 ) ) ;
#26 = AXIS2_PLACEMENT_3D ( 'NONE', #63, #160, #234 ) ;
#27 = LINE ( 'NONE', #274, #24 ) ;
#28 = DIRECTION ( 'NONE',  ( 1.000000000000000000, 0.000000000000000000, 0.000000000000000000 ) ) ;
#29 = CARTESIAN_POINT ( 'NONE',  ( -9.999999999999998224, -10.00000000000000000, 10.00000000000000000 ) ) ;
#30 = ADVANCED_FACE ( 'NONE', ( #219 ), #59, .F. ) ;
#31 = DIRECTION ( 'NONE',  ( -0.000000000000000000, 0.000000000000000000, -1.000000000000000000 ) ) ;
#32 = CARTESIAN_POINT ( 'NONE',  ( -9.999999999999998224, 10.00000000000000355, -10.00000000000000000 ) ) ;
#33 = ORIENTED_EDGE ( 'NONE', *, *, #165, .F. ) ;
#34 =( LENGTH_UNIT ( ) NAMED_UNIT ( * ) SI_UNIT ( .MILLI., .METRE. ) );
#35 = DIRECTION ( 'NONE',  ( -0.000000000000000000, -0.000000000000000000, -1.000000000000000000 ) ) ;
#36 = DESIGN_CONTEXT ( 'detailed design', #98, 'design' ) ;
#37 = MECHANICAL_CONTEXT ( 'NONE', #289, 'mechanical' ) ;
#38 = EDGE_CURVE ( 'NONE', #70, #123, #303, .T. ) ;
#39 = APPLICATION_PROTOCOL_DEFINITION ( 'international standard', 'config_control_design', 1994, #289 ) ;
#40 = CALENDAR_DATE ( 2021, 5, 1 ) ;
#41 = LOCAL_TIME ( 10, 14, 57.00000000000000000, #120 ) ;
#42 = SHAPE_DEFINITION_REPRESENTATION ( #94, #139 ) ;
#43 = MANIFOLD_SOLID_BREP ( 'Í¹Ì¨-À', #295 ) ;
#44 = PRODUCT_RELATED_PRODUCT_CATEGORY ( 'detail', '', ( #207 ) ) ;
#45 = VERTEX_POINT ( 'NONE', #200 ) ;
#46 = ORIENTED_EDGE ( 'NONE', *, *, #47, .T. ) ;
#47 = EDGE_CURVE ( 'NONE', #108, #70, #178, .T. ) ;
#48 = LINE ( 'NONE', #147, #259 ) ;
#49 = ORIENTED_EDGE ( 'NONE', *, *, #60, .F. ) ;
#50 = CARTESIAN_POINT ( 'NONE',  ( 0.000000000000000000, 0.000000000000000000, 10.00000000000000000 ) ) ;
#51 = VECTOR ( 'NONE', #157, 1000.000000000000000 ) ;
#52 = PLANE ( 'NONE',  #112 ) ;
#53 = PLANE ( 'NONE',  #263 ) ;
#54 = CARTESIAN_POINT ( 'NONE',  ( -10.00000000000000178, -9.999999999999996447, 10.00000000000000000 ) ) ;
#55 = CARTESIAN_POINT ( 'NONE',  ( -10.00000000000000178, -9.999999999999996447, -10.00000000000000000 ) ) ;
#56 = UNCERTAINTY_MEASURE_WITH_UNIT (LENGTH_MEASURE( 1.000000000000000082E-05 ), #34, 'distance_accuracy_value', 'NONE');
#57 = AXIS2_PLACEMENT_3D ( 'NONE', #288, #138, #258 ) ;
#58 = DIRECTION ( 'NONE',  ( 2.220446049250313081E-16, 1.000000000000000000, 0.000000000000000000 ) ) ;
#59 = PLANE ( 'NONE',  #235 ) ;
#60 = EDGE_CURVE ( 'NONE', #70, #45, #27, .T. ) ;
#61 = LINE ( 'NONE', #204, #287 ) ;
#62 = ADVANCED_FACE ( 'NONE', ( #132 ), #52, .F. ) ;
#63 = CARTESIAN_POINT ( 'NONE',  ( 10.00000000000000178, 9.999999999999998224, 10.00000000000000000 ) ) ;
#64 = APPROVAL ( #142, 'UNSPECIFIED' ) ;
#65 = COORDINATED_UNIVERSAL_TIME_OFFSET ( 8, 0, .AHEAD. ) ;
#66 = VERTEX_POINT ( 'NONE', #153 ) ;
#67 = APPROVAL_ROLE ( '' ) ;
#68 = LOCAL_TIME ( 10, 14, 57.00000000000000000, #264 ) ;
#69 = ORIENTED_EDGE ( 'NONE', *, *, #286, .T. ) ;
#70 = VERTEX_POINT ( 'NONE', #29 ) ;
#71 = AXIS2_PLACEMENT_3D ( 'NONE', #72, #199, #129 ) ;
#72 = CARTESIAN_POINT ( 'NONE',  ( 10.00000000000000000, 10.00000000000000000, 10.00000000000000000 ) ) ;
#73 = FACE_OUTER_BOUND ( 'NONE', #248, .T. ) ;
#74 = EDGE_LOOP ( 'NONE', ( #240, #11, #319 ) ) ;
#75 = CARTESIAN_POINT ( 'NONE',  ( -9.999999999999998224, 10.00000000000000355, 10.00000000000000000 ) ) ;
#76 = VECTOR ( 'NONE', #106, 1000.000000000000000 ) ;
#77 = CARTESIAN_POINT ( 'NONE',  ( -9.999999999999998224, -10.00000000000000000, 10.00000000000000000 ) ) ;
#78 = LINE ( 'NONE', #223, #185 ) ;
#79 = LINE ( 'NONE', #221, #76 ) ;
#80 = CARTESIAN_POINT ( 'NONE',  ( -9.999999999999998224, 10.00000000000000355, 10.00000000000000000 ) ) ;
#81 = EDGE_LOOP ( 'NONE', ( #8, #33, #49, #124 ) ) ;
#82 =( NAMED_UNIT ( * ) PLANE_ANGLE_UNIT ( ) SI_UNIT ( $, .RADIAN. ) );
#83 = LINE ( 'NONE', #180, #155 ) ;
#84 = PRODUCT_DEFINITION ( 'UNKNOWN', '', #236, #36 ) ;
#85 = FACE_OUTER_BOUND ( 'NONE', #172, .T. ) ;
#86 = DIRECTION ( 'NONE',  ( -0.000000000000000000, 0.000000000000000000, -1.000000000000000000 ) ) ;
#87 = CARTESIAN_POINT ( 'NONE',  ( 10.00000000000000000, 10.00000000000000000, 10.00000000000000000 ) ) ;
#88 = EDGE_CURVE ( 'NONE', #228, #146, #79, .T. ) ;
#89 = VECTOR ( 'NONE', #86, 1000.000000000000000 ) ;
#90 = DATE_TIME_ROLE ( 'classification_date' ) ;
#91 = PERSON ( 'UNSPECIFIED', 'UNSPECIFIED', 'UNSPECIFIED', ('UNSPECIFIED'), ('UNSPECIFIED'), ('UNSPECIFIED') ) ;
#92 = DATE_AND_TIME ( #40, #68 ) ;
#93 = VECTOR ( 'NONE', #127, 1000.000000000000000 ) ;
#94 = PRODUCT_DEFINITION_SHAPE ( 'NONE', 'NONE',  #84 ) ;
#95 = ORIENTED_EDGE ( 'NONE', *, *, #158, .T. ) ;
#96 = APPROVAL_DATE_TIME ( #92, #113 ) ;
#97 = ORIENTED_EDGE ( 'NONE', *, *, #165, .T. ) ;
#98 = APPLICATION_CONTEXT ( 'configuration controlled 3d designs of mechanical parts and assemblies' ) ;
#99 = AXIS2_PLACEMENT_3D ( 'NONE', #50, #299, #298 ) ;
#100 = APPROVAL_PERSON_ORGANIZATION ( #209, #64, #67 ) ;
#101 = FACE_OUTER_BOUND ( 'NONE', #128, .T. ) ;
#102 = ORIENTED_EDGE ( 'NONE', *, *, #286, .F. ) ;
#103 = EDGE_CURVE ( 'NONE', #156, #228, #306, .T. ) ;
#104 = DIRECTION ( 'NONE',  ( -0.7071067811865475727, -0.7071067811865474617, 0.000000000000000000 ) ) ;
#105 = PLANE ( 'NONE',  #246 ) ;
#106 = DIRECTION ( 'NONE',  ( 2.220446049250313081E-16, 1.000000000000000000, 0.000000000000000000 ) ) ;
#107 = DIRECTION ( 'NONE',  ( 0.000000000000000000, 1.000000000000000000, 0.000000000000000000 ) ) ;
#108 = VERTEX_POINT ( 'NONE', #133 ) ;
#109 = CARTESIAN_POINT ( 'NONE',  ( -10.00000000000000178, -9.999999999999996447, 10.00000000000000000 ) ) ;
#110 = DIRECTION ( 'NONE',  ( -0.7071067811865475727, -0.7071067811865474617, 0.000000000000000000 ) ) ;
#111 = EDGE_CURVE ( 'NONE', #66, #176, #224, .T. ) ;
#112 = AXIS2_PLACEMENT_3D ( 'NONE', #278, #203, #151 ) ;
#113 = APPROVAL ( #118, 'UNSPECIFIED' ) ;
#114 = DATE_AND_TIME ( #137, #222 ) ;
#115 = CLOSED_SHELL ( 'NONE', ( #270, #237, #181, #212, #30 ) ) ;
#116 = VECTOR ( 'NONE', #3, 1000.000000000000000 ) ;
#117 = SECURITY_CLASSIFICATION ( '', '', #119 ) ;
#118 = APPROVAL_STATUS ( 'not_yet_approved' ) ;
#119 = SECURITY_CLASSIFICATION_LEVEL ( 'unclassified' ) ;
#120 = COORDINATED_UNIVERSAL_TIME_OFFSET ( 8, 0, .AHEAD. ) ;
#121 = EDGE_CURVE ( 'NONE', #123, #296, #186, .T. ) ;
#122 = APPROVAL_DATE_TIME ( #315, #64 ) ;
#123 = VERTEX_POINT ( 'NONE', #311 ) ;
#124 = ORIENTED_EDGE ( 'NONE', *, *, #38, .T. ) ;
#125 = VECTOR ( 'NONE', #110, 1000.000000000000000 ) ;
#126 = ORGANIZATION ( 'UNSPECIFIED', 'UNSPECIFIED', '' ) ;
#127 = DIRECTION ( 'NONE',  ( -0.000000000000000000, -0.000000000000000000, -1.000000000000000000 ) ) ;
#128 = EDGE_LOOP ( 'NONE', ( #19, #213, #102 ) ) ;
#129 = DIRECTION ( 'NONE',  ( 0.000000000000000000, 0.000000000000000000, 1.000000000000000000 ) ) ;
#130 = CC_DESIGN_PERSON_AND_ORGANIZATION_ASSIGNMENT ( #189, #291, ( #236 ) ) ;
#131 = FACE_OUTER_BOUND ( 'NONE', #245, .T. ) ;
#132 = FACE_OUTER_BOUND ( 'NONE', #217, .T. ) ;
#133 = CARTESIAN_POINT ( 'NONE',  ( 10.00000000000000178, 9.999999999999998224, 10.00000000000000000 ) ) ;
#134 = CC_DESIGN_APPROVAL ( #143, ( #84 ) ) ;
#135 = PLANE ( 'NONE',  #297 ) ;
#136 = DIRECTION ( 'NONE',  ( -0.7071067811865474617, 0.7071067811865475727, 0.000000000000000000 ) ) ;
#137 = CALENDAR_DATE ( 2021, 5, 1 ) ;
#138 = DIRECTION ( 'NONE',  ( 0.000000000000000000, 0.000000000000000000, 1.000000000000000000 ) ) ;
#139 = ADVANCED_BREP_SHAPE_REPRESENTATION ( 'N-SF1-BPBSC-20-1200-1600', ( #43, #149, #57 ), #184 ) ;
#140 = PERSON_AND_ORGANIZATION_ROLE ( 'creator' ) ;
#141 = AXIS2_PLACEMENT_3D ( 'NONE', #225, #277, #218 ) ;
#142 = APPROVAL_STATUS ( 'not_yet_approved' ) ;
#143 = APPROVAL ( #233, 'UNSPECIFIED' ) ;
#144 = EDGE_LOOP ( 'NONE', ( #294, #255, #308, #97 ) ) ;
#145 = PERSON_AND_ORGANIZATION ( #91, #126 ) ;
#146 = VERTEX_POINT ( 'NONE', #32 ) ;
#147 = CARTESIAN_POINT ( 'NONE',  ( 10.00000000000000178, 9.999999999999998224, -10.00000000000000000 ) ) ;
#148 = LINE ( 'NONE', #247, #2 ) ;
#149 = MANIFOLD_SOLID_BREP ( '¾µÏ', #115 ) ;
#150 = CARTESIAN_POINT ( 'NONE',  ( 10.00000000000000000, 10.00000000000000000, 10.00000000000000000 ) ) ;
#151 = DIRECTION ( 'NONE',  ( 1.000000000000000000, 0.000000000000000000, 0.000000000000000000 ) ) ;
#152 = DIRECTION ( 'NONE',  ( -0.000000000000000000, 0.000000000000000000, 1.000000000000000000 ) ) ;
#153 = CARTESIAN_POINT ( 'NONE',  ( 10.00000000000000000, 10.00000000000000000, 10.00000000000000000 ) ) ;
#154 = DIRECTION ( 'NONE',  ( 0.000000000000000000, -0.000000000000000000, 1.000000000000000000 ) ) ;
#155 = VECTOR ( 'NONE', #198, 1000.000000000000000 ) ;
#156 = VERTEX_POINT ( 'NONE', #109 ) ;
#157 = DIRECTION ( 'NONE',  ( -0.7071067811865475727, -0.7071067811865474617, 0.000000000000000000 ) ) ;
#158 = EDGE_CURVE ( 'NONE', #171, #146, #252, .T. ) ;
#159 = DIRECTION ( 'NONE',  ( 1.000000000000000000, 0.000000000000000000, 0.000000000000000000 ) ) ;
#160 = DIRECTION ( 'NONE',  ( 0.7071067811865474617, -0.7071067811865475727, 0.000000000000000000 ) ) ;
#161 = CC_DESIGN_DATE_AND_TIME_ASSIGNMENT ( #168, #90, ( #117 ) ) ;
#162 = ORIENTED_EDGE ( 'NONE', *, *, #169, .F. ) ;
#163 = APPROVAL_DATE_TIME ( #114, #143 ) ;
#164 = ORIENTED_EDGE ( 'NONE', *, *, #169, .T. ) ;
#165 = EDGE_CURVE ( 'NONE', #45, #296, #173, .T. ) ;
#166 = AXIS2_PLACEMENT_3D ( 'NONE', #87, #136, #187 ) ;
#167 = CALENDAR_DATE ( 2021, 5, 1 ) ;
#168 = DATE_AND_TIME ( #239, #260 ) ;
#169 = EDGE_CURVE ( 'NONE', #4, #123, #48, .T. ) ;
#170 = ORIENTED_EDGE ( 'NONE', *, *, #174, .F. ) ;
#171 = VERTEX_POINT ( 'NONE', #75 ) ;
#172 = EDGE_LOOP ( 'NONE', ( #164, #300, #269, #191 ) ) ;
#173 = LINE ( 'NONE', #175, #93 ) ;
#174 = EDGE_CURVE ( 'NONE', #296, #4, #216, .T. ) ;
#175 = CARTESIAN_POINT ( 'NONE',  ( 10.00000000000000178, -10.00000000000000000, 10.00000000000000000 ) ) ;
#176 = VERTEX_POINT ( 'NONE', #7 ) ;
#177 = FACE_OUTER_BOUND ( 'NONE', #25, .T. ) ;
#178 = LINE ( 'NONE', #12, #125 ) ;
#179 = DIRECTION ( 'NONE',  ( -0.7071067811865475727, -0.7071067811865474617, 0.000000000000000000 ) ) ;
#180 = CARTESIAN_POINT ( 'NONE',  ( 10.00000000000000178, 9.999999999999998224, 10.00000000000000000 ) ) ;
#181 = ADVANCED_FACE ( 'NONE', ( #73 ), #201, .F. ) ;
#182 = CARTESIAN_POINT ( 'NONE',  ( 0.000000000000000000, 0.000000000000000000, 10.00000000000000000 ) ) ;
#183 = CARTESIAN_POINT ( 'NONE',  ( 10.00000000000000000, 10.00000000000000000, 10.00000000000000000 ) ) ;
#184 =( GEOMETRIC_REPRESENTATION_CONTEXT ( 3 ) GLOBAL_UNCERTAINTY_ASSIGNED_CONTEXT ( ( #56 ) ) GLOBAL_UNIT_ASSIGNED_CONTEXT ( ( #34, #82, #257 ) ) REPRESENTATION_CONTEXT ( 'NONE', 'WORKASPACE' ) );
#185 = VECTOR ( 'NONE', #179, 1000.000000000000000 ) ;
#186 = LINE ( 'NONE', #284, #304 ) ;
#187 = DIRECTION ( 'NONE',  ( 0.7071067811865475727, 0.7071067811865474617, 0.000000000000000000 ) ) ;
#188 = PERSON_AND_ORGANIZATION ( #91, #126 ) ;
#189 = PERSON_AND_ORGANIZATION ( #91, #126 ) ;
#190 = CC_DESIGN_APPROVAL ( #113, ( #236 ) ) ;
#191 = ORIENTED_EDGE ( 'NONE', *, *, #230, .T. ) ;
#192 = ORIENTED_EDGE ( 'NONE', *, *, #317, .T. ) ;
#193 = PERSON_AND_ORGANIZATION ( #91, #126 ) ;
#194 = ORIENTED_EDGE ( 'NONE', *, *, #88, .F. ) ;
#195 = EDGE_CURVE ( 'NONE', #171, #66, #220, .T. ) ;
#196 = PLANE ( 'NONE',  #99 ) ;
#197 = CARTESIAN_POINT ( 'NONE',  ( 10.00000000000000178, 9.999999999999998224, 10.00000000000000000 ) ) ;
#198 = DIRECTION ( 'NONE',  ( -0.000000000000000000, 1.000000000000000000, -0.000000000000000000 ) ) ;
#199 = DIRECTION ( 'NONE',  ( -2.220446049250313081E-16, -1.000000000000000000, 0.000000000000000000 ) ) ;
#200 = CARTESIAN_POINT ( 'NONE',  ( 10.00000000000000178, -10.00000000000000000, 10.00000000000000000 ) ) ;
#201 = PLANE ( 'NONE',  #71 ) ;
#202 = PERSON_AND_ORGANIZATION_ROLE ( 'design_owner' ) ;
#203 = DIRECTION ( 'NONE',  ( -0.000000000000000000, 0.000000000000000000, 1.000000000000000000 ) ) ;
#204 = CARTESIAN_POINT ( 'NONE',  ( 10.00000000000000000, 10.00000000000000000, -10.00000000000000000 ) ) ;
#205 = CC_DESIGN_APPROVAL ( #64, ( #117 ) ) ;
#206 = APPLICATION_PROTOCOL_DEFINITION ( 'international standard', 'config_control_design', 1994, #98 ) ;
#207 = PRODUCT ( 'N-SF1-BPBSC-20-1200-1600', 'N-SF1-BPBSC-20-1200-1600', '', ( #37 ) ) ;
#208 = PLANE ( 'NONE',  #166 ) ;
#209 = PERSON_AND_ORGANIZATION ( #91, #126 ) ;
#210 = PERSON_AND_ORGANIZATION_ROLE ( 'creator' ) ;
#211 = APPROVAL_PERSON_ORGANIZATION ( #145, #113, #320 ) ;
#212 = ADVANCED_FACE ( 'NONE', ( #101 ), #196, .T. ) ;
#213 = ORIENTED_EDGE ( 'NONE', *, *, #195, .F. ) ;
#214 = ORIENTED_EDGE ( 'NONE', *, *, #111, .F. ) ;
#215 = VECTOR ( 'NONE', #244, 1000.000000000000000 ) ;
#216 = LINE ( 'NONE', #302, #20 ) ;
#217 = EDGE_LOOP ( 'NONE', ( #162, #170, #309 ) ) ;
#218 = DIRECTION ( 'NONE',  ( 0.000000000000000000, 0.000000000000000000, 1.000000000000000000 ) ) ;
#219 = FACE_OUTER_BOUND ( 'NONE', #74, .T. ) ;
#220 = LINE ( 'NONE', #150, #116 ) ;
#221 = CARTESIAN_POINT ( 'NONE',  ( -10.00000000000000178, -9.999999999999996447, -10.00000000000000000 ) ) ;
#222 = LOCAL_TIME ( 10, 14, 57.00000000000000000, #65 ) ;
#223 = CARTESIAN_POINT ( 'NONE',  ( 10.00000000000000000, 10.00000000000000000, -10.00000000000000000 ) ) ;
#224 = LINE ( 'NONE', #10, #89 ) ;
#225 = CARTESIAN_POINT ( 'NONE',  ( -10.00000000000000178, -9.999999999999996447, 10.00000000000000000 ) ) ;
#226 = ADVANCED_FACE ( 'NONE', ( #177 ), #135, .T. ) ;
#227 = CARTESIAN_POINT ( 'NONE',  ( 10.00000000000000178, 9.999999999999998224, -10.00000000000000000 ) ) ;
#228 = VERTEX_POINT ( 'NONE', #55 ) ;
#229 = CC_DESIGN_SECURITY_CLASSIFICATION ( #117, ( #236 ) ) ;
#230 = EDGE_CURVE ( 'NONE', #108, #4, #148, .T. ) ;
#231 = LINE ( 'NONE', #310, #1 ) ;
#232 = CC_DESIGN_DATE_AND_TIME_ASSIGNMENT ( #268, #241, ( #84 ) ) ;
#233 = APPROVAL_STATUS ( 'not_yet_approved' ) ;
#234 = DIRECTION ( 'NONE',  ( 0.7071067811865475727, 0.7071067811865474617, 0.000000000000000000 ) ) ;
#235 = AXIS2_PLACEMENT_3D ( 'NONE', #276, #6, #271 ) ;
#236 = PRODUCT_DEFINITION_FORMATION_WITH_SPECIFIED_SOURCE ( 'ANY', '', #207, .NOT_KNOWN. ) ;
#237 = ADVANCED_FACE ( 'NONE', ( #131 ), #254, .F. ) ;
#238 = ORIENTED_EDGE ( 'NONE', *, *, #249, .F. ) ;
#239 = CALENDAR_DATE ( 2021, 5, 1 ) ;
#240 = ORIENTED_EDGE ( 'NONE', *, *, #249, .T. ) ;
#241 = DATE_TIME_ROLE ( 'creation_date' ) ;
#242 = ADVANCED_FACE ( 'NONE', ( #5 ), #105, .F. ) ;
#243 = EDGE_LOOP ( 'NONE', ( #238, #214, #192, #21 ) ) ;
#244 = DIRECTION ( 'NONE',  ( -0.000000000000000000, 0.000000000000000000, -1.000000000000000000 ) ) ;
#245 = EDGE_LOOP ( 'NONE', ( #194, #267, #69, #95 ) ) ;
#246 = AXIS2_PLACEMENT_3D ( 'NONE', #197, #272, #305 ) ;
#247 = CARTESIAN_POINT ( 'NONE',  ( 10.00000000000000178, 9.999999999999998224, 10.00000000000000000 ) ) ;
#248 = EDGE_LOOP ( 'NONE', ( #293, #265, #282, #22 ) ) ;
#249 = EDGE_CURVE ( 'NONE', #176, #228, #78, .T. ) ;
#250 = DIRECTION ( 'NONE',  ( -0.000000000000000000, 1.000000000000000000, -0.000000000000000000 ) ) ;
#251 = DIRECTION ( 'NONE',  ( 1.000000000000000000, 0.000000000000000000, 0.000000000000000000 ) ) ;
#252 = LINE ( 'NONE', #80, #215 ) ;
#253 = ORIENTED_EDGE ( 'NONE', *, *, #15, .T. ) ;
#254 = PLANE ( 'NONE',  #141 ) ;
#255 = ORIENTED_EDGE ( 'NONE', *, *, #230, .F. ) ;
#256 = DIRECTION ( 'NONE',  ( 1.000000000000000000, -2.220446049250313081E-16, 0.000000000000000000 ) ) ;
#257 =( NAMED_UNIT ( * ) SI_UNIT ( $, .STERADIAN. ) SOLID_ANGLE_UNIT ( ) );
#258 = DIRECTION ( 'NONE',  ( 1.000000000000000000, 0.000000000000000000, 0.000000000000000000 ) ) ;
#259 = VECTOR ( 'NONE', #104, 1000.000000000000000 ) ;
#260 = LOCAL_TIME ( 10, 14, 57.00000000000000000, #290 ) ;
#261 = ADVANCED_FACE ( 'NONE', ( #275 ), #53, .F. ) ;
#262 = PERSON_AND_ORGANIZATION ( #91, #126 ) ;
#263 = AXIS2_PLACEMENT_3D ( 'NONE', #9, #107, #154 ) ;
#264 = COORDINATED_UNIVERSAL_TIME_OFFSET ( 8, 0, .AHEAD. ) ;
#265 = ORIENTED_EDGE ( 'NONE', *, *, #158, .F. ) ;
#266 = CALENDAR_DATE ( 2021, 5, 1 ) ;
#267 = ORIENTED_EDGE ( 'NONE', *, *, #103, .F. ) ;
#268 = DATE_AND_TIME ( #266, #41 ) ;
#269 = ORIENTED_EDGE ( 'NONE', *, *, #47, .F. ) ;
#270 = ADVANCED_FACE ( 'NONE', ( #13 ), #208, .F. ) ;
#271 = DIRECTION ( 'NONE',  ( 2.220446049250313081E-16, 1.000000000000000000, 0.000000000000000000 ) ) ;
#272 = DIRECTION ( 'NONE',  ( -1.000000000000000000, 0.000000000000000000, 0.000000000000000000 ) ) ;
#273 = CC_DESIGN_PERSON_AND_ORGANIZATION_ASSIGNMENT ( #193, #318, ( #117 ) ) ;
#274 = CARTESIAN_POINT ( 'NONE',  ( -9.999999999999998224, -10.00000000000000000, 10.00000000000000000 ) ) ;
#275 = FACE_OUTER_BOUND ( 'NONE', #81, .T. ) ;
#276 = CARTESIAN_POINT ( 'NONE',  ( 0.000000000000000000, 0.000000000000000000, -10.00000000000000000 ) ) ;
#277 = DIRECTION ( 'NONE',  ( 1.000000000000000000, -2.220446049250313081E-16, 0.000000000000000000 ) ) ;
#278 = CARTESIAN_POINT ( 'NONE',  ( 0.000000000000000000, 0.000000000000000000, -10.00000000000000000 ) ) ;
#279 = EDGE_CURVE ( 'NONE', #146, #176, #61, .T. ) ;
#280 = VECTOR ( 'NONE', #35, 1000.000000000000000 ) ;
#281 = PERSON_AND_ORGANIZATION ( #91, #126 ) ;
#282 = ORIENTED_EDGE ( 'NONE', *, *, #195, .T. ) ;
#283 = CARTESIAN_POINT ( 'NONE',  ( 10.00000000000000178, -10.00000000000000000, -10.00000000000000000 ) ) ;
#284 = CARTESIAN_POINT ( 'NONE',  ( -9.999999999999998224, -10.00000000000000000, -10.00000000000000000 ) ) ;
#285 = LINE ( 'NONE', #183, #51 ) ;
#286 = EDGE_CURVE ( 'NONE', #156, #171, #231, .T. ) ;
#287 = VECTOR ( 'NONE', #256, 1000.000000000000000 ) ;
#288 = CARTESIAN_POINT ( 'NONE',  ( 0.000000000000000000, 0.000000000000000000, 0.000000000000000000 ) ) ;
#289 = APPLICATION_CONTEXT ( 'configuration controlled 3d designs of mechanical parts and assemblies' ) ;
#290 = COORDINATED_UNIVERSAL_TIME_OFFSET ( 8, 0, .AHEAD. ) ;
#291 = PERSON_AND_ORGANIZATION_ROLE ( 'design_supplier' ) ;
#292 = COORDINATED_UNIVERSAL_TIME_OFFSET ( 8, 0, .AHEAD. ) ;
#293 = ORIENTED_EDGE ( 'NONE', *, *, #279, .F. ) ;
#294 = ORIENTED_EDGE ( 'NONE', *, *, #174, .T. ) ;
#295 = CLOSED_SHELL ( 'NONE', ( #312, #261, #242, #226, #62 ) ) ;
#296 = VERTEX_POINT ( 'NONE', #283 ) ;
#297 = AXIS2_PLACEMENT_3D ( 'NONE', #182, #152, #28 ) ;
#298 = DIRECTION ( 'NONE',  ( 2.220446049250313081E-16, 1.000000000000000000, 0.000000000000000000 ) ) ;
#299 = DIRECTION ( 'NONE',  ( 0.000000000000000000, -0.000000000000000000, 1.000000000000000000 ) ) ;
#300 = ORIENTED_EDGE ( 'NONE', *, *, #38, .F. ) ;
#301 = CC_DESIGN_PERSON_AND_ORGANIZATION_ASSIGNMENT ( #281, #202, ( #207 ) ) ;
#302 = CARTESIAN_POINT ( 'NONE',  ( 10.00000000000000178, 9.999999999999998224, -10.00000000000000000 ) ) ;
#303 = LINE ( 'NONE', #77, #280 ) ;
#304 = VECTOR ( 'NONE', #159, 1000.000000000000000 ) ;
#305 = DIRECTION ( 'NONE',  ( 0.000000000000000000, 0.000000000000000000, 1.000000000000000000 ) ) ;
#306 = LINE ( 'NONE', #54, #16 ) ;
#307 = DIRECTION ( 'NONE',  ( -0.000000000000000000, -0.000000000000000000, -1.000000000000000000 ) ) ;
#308 = ORIENTED_EDGE ( 'NONE', *, *, #15, .F. ) ;
#309 = ORIENTED_EDGE ( 'NONE', *, *, #121, .F. ) ;
#310 = CARTESIAN_POINT ( 'NONE',  ( -10.00000000000000178, -9.999999999999996447, 10.00000000000000000 ) ) ;
#311 = CARTESIAN_POINT ( 'NONE',  ( -9.999999999999998224, -10.00000000000000000, -10.00000000000000000 ) ) ;
#312 = ADVANCED_FACE ( 'NONE', ( #85 ), #313, .F. ) ;
#313 = PLANE ( 'NONE',  #26 ) ;
#314 = LOCAL_TIME ( 10, 14, 57.00000000000000000, #292 ) ;
#315 = DATE_AND_TIME ( #167, #314 ) ;
#316 = CC_DESIGN_PERSON_AND_ORGANIZATION_ASSIGNMENT ( #18, #210, ( #236 ) ) ;
#317 = EDGE_CURVE ( 'NONE', #66, #156, #285, .T. ) ;
#318 = PERSON_AND_ORGANIZATION_ROLE ( 'classification_officer' ) ;
#319 = ORIENTED_EDGE ( 'NONE', *, *, #279, .T. ) ;
#320 = APPROVAL_ROLE ( '' ) ;
#321 = ORIENTED_EDGE ( 'NONE', *, *, #60, .T. ) ;
ENDSEC;
END-ISO-10303-21;
